Green day fan's

Forum consacré au groupe de punk-rock américain green day!!
 
AccueilRechercherS'enregistrerConnexion

Partagez
 

 Warning Tab Basse

Aller en bas 
AuteurMessage
kill_em_all

kill_em_all

Nombre de messages : 10
Age : 33
Localisation : Rabat, Maroc
Date d'inscription : 07/07/2006

Warning Tab Basse Empty
MessageSujet: Warning Tab Basse   Warning Tab Basse EmptyDim 9 Juil à 15:41

Voila le reef que la basse joue pratiquement tout le temps :
|---------------------------------------------------------------------
|---------------------------------------------------------------------
|---------------------------------------------------------------------
|-----------------------------------4--5--5--4----------------------
|-------------------4--5--5--7-------------------7-5--5-4--------
|------5--5--7--------------------------------------------------7---

Voila le petit reef que mike joue juste aprés le chorus et pour le verse 3 :
|-----------------------------------
|-------------------------------------
|------------------------------------------------
|----------------------------------------------------
|-----0--4--0-----------0--0--4--0---------------------------
|----------------3--0------------------3--0--------------

Voila Smile moi perso j'aime bien cette chanson Smile pour le reste c'est a vous de voir... Smile
Revenir en haut Aller en bas
 
Warning Tab Basse
Revenir en haut 
Page 1 sur 1

Permission de ce forum:Vous ne pouvez pas répondre aux sujets dans ce forum
Green day fan's :: Green day :: Tablatures et paroles-
Sauter vers: