Green day fan's

Forum consacré au groupe de punk-rock américain green day!!
 
AccueilFAQRechercherS'enregistrerMembresGroupesConnexion

Partagez | 
 

 Wake Me Up When September Ends tab

Aller en bas 
AuteurMessage
Green Day
Admin
avatar

Nombre de messages : 121
Date d'inscription : 01/02/2006

MessageSujet: Wake Me Up When September Ends tab   Mer 1 Fév à 14:58

C - |x32010| Em - |022000|
Cm - |x35543| Bm - |x24432|
G - |3x0033| D - |xx0232|
G/Gb - |200033|

__________________________________________________||
--------------------------------------------------||
Edit (7/28/05) : ||
||
Changed this To this ||
e| |----0-----0-----| e| |------------------| ||
B| |----1-1---1---1-| B| |----5-----5------| ||
G| |--0-------0----| G| |----5-5---5---5-| ||
D| |----------------| D| |--5-------5-------| ||
A| |3-------3------| A| |3-------3---------| ||
E| |----------------| E| |--------------------| ||
||
In

{Intro (acoustic)
{e| |------------------|-----------------|-----------------|----------------|
{B| |----3-----3-----|----3-----3-----|----3-----3-----|----3-----3-----|
{G| |--0-----0-------|--0-----0-------|--0-----0-------|--0-----0-------|
{D| |5-----5---------|5-----5---------|5-----5---------|5-----5---------|
{A| |-----------------|-----------------|-----------------|----------------|
{E| |-----------------|-----------------|-----------------|----------------|

{Verse 1
{e| |------------------|-----------------|-----------------|----------------|
{B| |----3-----3-----|----3-----3-----|----3-----3-----|----3-----3-----|
{G| |--0-----0-------|--0-----0-------|--0-----0-------|--0-----0-------|
{D| |5-----5---------|4-----4---------|2-----2---------|0-----0---------|
{A| |-----------------|-----------------|------------------|----------------|
{E| |-----------------|-----------------|------------------|----------------|
{
{ C Cm G G
{e| |-------------------|-----------------|--------------------|----------------|
{B| |----5-----5-------|----4-----4-----|----3-----3-------|----3-----3-----|
{G| |----5-5---5---5-|--5---5---5---0-|----0-0---0---0-|----0-0---0---0-|
{D| |--5-------5------|--------5-----0--|--0-------0-------|--0-------0-----|
{A| |3-------3--------|3----------------|--------------------|----------------|
{E| |-----------------|-------------------|3-------3----------|3-------3-------|

Repeat Verse 1 except final measure, then G G/Gb
|----3-----------|
|----3-------3-0-|
|----0-0-----0---|
|--0-------------|
|----------0-----|
|3-------2-------|
Bridge
Em Bm C G G/Gb
e| |------------------|------------------|----0-----0-----|----3-----------|
B| |----0-----0------|----3-----3-----|----1-1---1------|----3-------3-0-|
G| |----0-0---0-----|----4-----4-----|--0-------0---0-|----0-0-----0---|
D| |--2-------2---0-|--4---4-------4-|--------------0-|--0-------------|
A| |------------------|2-------2-------|3-------3-------|----------0-----|
E| |0-------0-------|------------------|------------------|3-------2-------|

Em Bm C D
e| |-------------------|------------------|----0-----0-----|----2-----2-----|
B| |----0-----0------|----3-----3------|----1-1---1------|----3-3---3-----|
G| |----0-0---0-----|----4-----4------|--0-------0---0-|--2---2---2---0-|
D| |--2-------2---0-|--4---4-------4-|------------------|0-------0-------|
A| |------------------|2-------2--------|3-------3-------|----------------|
E| |0-------0-------|-------------------|---------------------|----------------|

_________________


Dernière édition par le Mer 1 Fév à 15:10, édité 1 fois
Revenir en haut Aller en bas
Voir le profil de l'utilisateur http://greendayparadise.jeun.fr
Green Day
Admin
avatar

Nombre de messages : 121
Date d'inscription : 01/02/2006

MessageSujet: Re: Wake Me Up When September Ends tab   Mer 1 Fév à 15:02

{Chorus
{ C Cm G5
{e| |-----------------------|----------------|----------------|----------------|
{B| |5-5-5-5-5-5-5-5-|4-4-4-4-4-4-4-4-|----------------|----------------|
{G| |5-5-5-5-5-5-5-5-|5-5-5-5-5-5-5-5-|----------------|----------------|
{D| |5-5-5-5-5-5-5-5-|5-5-5-5-5-5-5-5-|5-5-5-5-5-5-5-5-|5-5-5-5-5-5-5-5-|
{A| |3-3-3-3-3-3-3-3-|3-3-3-3-3-3-3-3-|5-5-5-5-5-5-5-5-|5-5-5-5-5-5-5-5-|
{E| |----------------|--------------------------|3-3-3-3-3-3-3-3-|3-3-3-3-3-3-3-3-|

Play the first 4 measures of Verse 1, then,

C Cm G5 G5/Gb
e| |----------------|----------------|----------------|----------------|
B| |5-5-5-5-5-5-5-5-|4-4-4-4-4-4-4-4-|----------------|----------------|
G| |5-5-5-5-5-5-5-5-|5-5-5-5-5-5-5-5-|----------------|----------------|
D| |5-5-5-5-5-5-5-5-|5-5-5-5-5-5-5-5-|5-5-5-5-5-5-5-5-|5-5-5-5-5-5-5-5-|
A| |3-3-3-3-3-3-3-3-|3-3-3-3-3-3-3-3-|5-5-5-5-5-5-5-5-|5-5-5-5-5-5-5-5-|
E| |----------------|--------------------------|3-3-3-3-3-3-3-3-|3-3-3-3-2-2-2-2-|

Distorted Bridge
E5 Bm C5 G5 G5/Gb
e| |--------------------|----------------|----------------|----------------|
B| |--------------------|----3-----------|----------------|----------------|
G| |--------------------|4-4-4-4-4-4-4-0-|5-5-5-5-5-5-5-0-|----------------|
D| |2-2-2-2-2-2-2-2-|4-4-4-4-4-4-4-0-|5-5-5-5-5-5-5-0-|5-5-5-5-5-5-5-0-|
A| |2-2-2-2-2-2-2-2-|2-2-2-2-2-2-2-0-|3-3-3-3-3-3-3-0-|5-5-5-5-5-5-5-0-|
E| |0-0-0-0-0-0-0-0-|----------------|--------------------------|3-3-3-3-2-2-2-0-|

E5 Bm C5 D5
e| |---------------------|----------------|----------------|----------------|
B| |---------------------|----3-3-3-3-3---|----------------|----------------|
G| |---------------------|4-4-4-4-4-4-4-0-|5-5-5-5-5-5-5-5-|7-7-7-7-7-7-7-7-|
D| |2-2-2-2-2-2-2-2-|4-4-4-4-4-4-4-0-|5-5-5-5-5-5-5-5-|7-7-7-7-7-7-7-7-|
A| |2-2-2-2-2-2-2-2-|2-2-2-2-2-2-2-0-|3-3-3-3-3-3-3-3-|5-5-5-5-5-5-5-5-|
E| |0-0-0-0-0-0-0-0-|----------------|----------------|----------------|

e| |----------------|------------3---|----------------|----------------|
B| |----3-----3-----|----3-----3-----|----3-----3-----|----3-----3-----|
G| |--0-----0-------|--0-----0-------|--0-----0-------|--0-----0-------|
D| |5-----5---------|4-----4---------|2-----2---------|0-----0---------|
A| |----------------|----------------|----------------|----------------|
E| |----------------|----------------|----------------|----------------|

C Cm G5 G5/Gb
e| |----------------|----------------|----------------|----------------|
B| |5-5-5-5-5-5-5-5-|4-4-4-4-4-4-4-4-|----------------|----------------|
G| |5-5-5-5-5-5-5-5-|5-5-5-5-5-5-5-5-|----------------|----------------|
D| |5-5-5-5-5-5-5-5-|5-5-5-5-5-5-5-5-|5-5-5-5-5-5-5-5-|5-5-5-5-5-5-5-5-|
A| |3-3-3-3-3-3-3-3-|3-3-3-3-3-3-3-3-|5-5-5-5-5-5-5-5-|5-5-5-5-5-5-5-5-|
E| |----------------|--------------------------|3-3-3-3-3-3-3-3-|3-3-3-3-2-2-2-2-|

_________________
Revenir en haut Aller en bas
Voir le profil de l'utilisateur http://greendayparadise.jeun.fr
Green Day
Admin
avatar

Nombre de messages : 121
Date d'inscription : 01/02/2006

MessageSujet: Re: Wake Me Up When September Ends tab   Mer 1 Fév à 15:04

Solo
{Guitar1
{e| |----------------|----------------|----------------|----------------|
{B| |-----12-----12---12|----12----12--12|----13-----13--13|1515151515151515|
{G|/|1212--1212--12--|1111--1111--11--|1212--1212--12--|1212121211111111|
{D| |----------------|----------------|----------------|----------------|
{A| |----------------|----------------|----------------|----------------|
{E| |----------------|----------------|----------------|----------------|
{
{e| |----------------|----------------|----------------|----------------|
{B| |-----12-----12--12|----12----12--12|----13----13--13|1515151515151515|
{G| |1212--1212--12--|1111--1111--11--|1212--1212--12--|1212121212121212|
{D| |----------------|----------------|----------------|----------------|
{A| |----------------|----------------|----------------|----------------|
{E| |----------------|----------------|----------------|----------------|
{
{e| |----------------|----------------|----------------|
{B| |1515151515151515|1515151515151515|1515151515151515|
{G| |1111111111111111|1212121212121212|1111111111111111|
{D| |----------------|----------------|----------------|
{A| |----------------|----------------|----------------|
{E| |----------------|----------------|----------------|

{Guitar2 (Rhythm Guitar) during the Solo
{ E5 Bm C5 G5 G5/Gb
{e| |---------------------|----------------|----------------|----------------|
{B| |---------------------|----3-----------|----------------|----------------|
{G| |---------------------|4-4-4-4-4-4-4-0-|5-5-5-5-5-5-5-0-|----------------|
{D| |2-2-2-2-2-2-2-2-|4-4-4-4-4-4-4-0-|5-5-5-5-5-5-5-0-|5-5-5-5-5-5-5-5-|
{A| |2-2-2-2-2-2-2-2-|2-2-2-2-2-2-2-0-|3-3-3-3-3-3-3-0-|5-5-5-5-5-5-5-5-|
{E| |0-0-0-0-0-0-0-0-|----------------|----------------|3-3-3-3-2-2-2-2-|
{
{ E5 Bm C5 D5
{e| |---------------------|----------------|----------------|----------------|
{B| |---------------------|----3-----------|----------------|3-3-3-3-3-3-3-3-|
{G| |---------------------|4-4-4-4-4-4-4-0-|5-5-5-5-5-5-5-5-|2-2-2-2-2-2-2-2-|
{D| |2-2-2-2-2-2-2-2-|4-4-4-4-4-4-4-0-|5-5-5-5-5-5-5-5-|0-0-0-0-0-0-0-0-|
{A| |2-2-2-2-2-2-2-2-|2-2-2-2-2-2-2-0-|3-3-3-3-3-3-3-3-|----------------|
{E| |0-0-0-0-0-0-0-0-|----------------|----------------|----------------|
{
{ D5
{e| |----------------|----------------|----------------|
{B| |3-3-3-3-3-3-3-3-|3-3-3-3-3-3-3-3-|3-3-3-3-3-3-3-3-|
{G| |2-2-2-2-2-2-2-2-|2-2-2-2-2-2-2-2-|2-2-2-2-2-2-2-2-|
{D| |0-0-0-0-0-0-0-0-|0-0-0-0-0-0-0-0-|0-0-0-0-0-0-0-0-|
{A| |----------------|----------------|----------------|
{E| |----------------|----------------|----------------|

Guitar2 (still w/distortion)
G
e| |3---------------|
B| |3---------------|
G| |0---------------|
D| |----------------|
A| |----------------|
E| |----------------|

{Guitar1 (clean/acoustic)
{e| |----------------|----------------|----------------|----------------|
{B| |----3-----3-----|----3-----3-----|----3-----3-----|----3-----3-----|
{G| |--0-----0-------|--0-----0-------|--0-----0-------|--0-----0-------|
{D| |5-----5---------|5-----5---------|5-----5---------|5-----5---------|
{A| |----------------|----------------|----------------|----------------|
{E| |----------------|----------------|----------------|----------------|
{
{e| |----------------|----------------|----------------|----------------|
{B| |----3-----3-----|----3-----3-----|----3-----3-----|----3-----3-----|
{G| |--0-----0-------|--0-----0-------|--0-----0-------|--0-----0-------|
{D| |5-----5---------|4-----4---------|2-----2---------|0-----0---------|
{A| |----------------|----------------|----------------|----------------|
{E| |----------------|----------------|----------------|----------------|


Finir avec :
C Cm G5
e| |----------------|----------------|----------------|----------------|
B| |5-5-5-5-5-5-5-5-|4-4-4-4-4-4-4-4-|----------------|----------------|
G| |5-5-5-5-5-5-5-5-|5-5-5-5-5-5-5-5-|----------------|----------------|
D| |5-5-5-5-5-5-5-5-|5-5-5-5-5-5-5-5-|5-5-5-5-5-5-5-5-|5---------------|
A| |3-3-3-3-3-3-3-3-|3-3-3-3-3-3-3-3-|5-5-5-5-5-5-5-5-|5---------------|
E| |----------------|--------------------------|3-3-3-3-3-3-3-3-|3---------------|

_________________
Revenir en haut Aller en bas
Voir le profil de l'utilisateur http://greendayparadise.jeun.fr
Contenu sponsorisé




MessageSujet: Re: Wake Me Up When September Ends tab   

Revenir en haut Aller en bas
 
Wake Me Up When September Ends tab
Revenir en haut 
Page 1 sur 1
 Sujets similaires
-
» The World Ends : Afro Rock & Psychedelia in 1970's Nigaria
» [Neurofunk - Drum'n'Bass] Mix by Imprintz - September 2008
» Welcome back my friends to the show that never ends
» september - are you free tonight à suivre
» LOOSE ENDS

Permission de ce forum:Vous ne pouvez pas répondre aux sujets dans ce forum
Green day fan's :: Green day :: Tablatures et paroles-
Sauter vers: