Green day fan's

Forum consacré au groupe de punk-rock américain green day!!
 
AccueilFAQRechercherS'enregistrerMembresGroupesConnexion

Partagez | 
 

 When I Come Around tab

Voir le sujet précédent Voir le sujet suivant Aller en bas 
AuteurMessage
Green Day
Admin
avatar

Nombre de messages : 121
Date d'inscription : 01/02/2006

MessageSujet: When I Come Around tab   Mer 1 Fév à 15:14

Eb Bb Gb Db Ab Eb

| / Slide up
| \ Slide down
| h Hammer-on
| /( ) Play note and slide up
| \( ) Play note and slide down
| p Pull-off
| ~ Let Ring
| X Mute note



Intro
Eb|---------------------------------|
Bb|----------------------------8-------5-|
Gb|---0---------------7-------9-----5-|
Db|-x-0-----5-----7-7-7-7-7-9-9-9-5-|
Ab|-x---5-5-5-5-5-5-5-5-5-5-7-7-7-3-|
Eb|-x---3-3-3-3-3-------------------|

Rhythm Figure 1
Eb|----------------------------------------------------|
Bb|----------------------------------8----5---5------|
Gb|------------------------7--------9----5---5------|
Db|---5---5------7-7-7-7-7--9-9-9--5---5--7-7-|
Ab|-5-5-5-5-5--5-5-5-5-5--7-7-7--3---3--5-5-|
Eb|-3-3-3-3-3--------------------------------------|
x x x x x x x x x x x

Rhythm Figure 2
Eb|--------------------------------------------------|
Bb|---------------------------------8----5---5------|
Gb|-----------------------7--------9----5---5------|
Db|-----5--------7-7-7-7-7--9-9-9--5---5--7-7-|
Ab|-5-5-5-5-5--5-5-5-5-5--7-7-7--3---3--5-5-|
Eb|-3-3-3-3-3---------------------------------------|
x x x x x x x x x x x x

Fill
Eb|----|
Bb|-5\-|
Gb|-5\-|
Db|-5\-|
Ab|-3\-|
Eb|----|

Chorus
Eb|--------------------------------------------------------------|
Bb|-----------------------5-5-5-5-5-5-5-5------------------------5-5-5-5-5-|
Gb|-2-2-2-2-2-2-2-2--5-5-5-5-5-5-5-5--2-2-2-2-2-2-2-2--5-5-5-5-5-|
Db|-2-2-2-2-2-2-2-2--5-5-5-5-5-5-5-5--2-2-2-2-2-2-2-2--5-5-5-5-5-|
Ab|-0-0-0-0-0-0-0-0--3-3-3-3-3-3-3-3--0-0-0-0-0-0-0-0--3-3-3-3-3-|
Eb|--------------------------------------------------------------|

Guitar Solo
Eb|3-----------5-------------3-3-----5--3-3-3-3-3-3-3--5-5-5-5--3-3-3-3-3-----------------------|
Bb|---3-----3-----3-----3---3-3-----3--3-3-3-3-3-3-3--3-3-3-3--3-3-3-3-3----5-5-5--/(15)-------|
Gb|------0-----------0-------0-0--0--0--0-0-0-0-0-0-0--0-0-0-0--0-0-0-0-0-/4-4-4h5--------------|
Db|-------------------------------------------------------------------------------------------|
Ab|-------------------------------------------------------------------------------------------|
Eb|-------------------------------------------------------------------------------------------\(12)|

Outro
Eb|---------------------------------------------------|
Bb|--------------------------------8----5~~~~~~-|
Gb|----------------------7--------9----5~~~~~~-|
Db|-------5------7-7-7-7-7--9-9-9--5~~~~~~-|
Ab|-5-5-5-5-5--5-5-5-5-5--7-7-7--3~~~~~~-|
Eb|-3-3-3-3-3-------------------------------------|
x x x x x x x x x x

Order:
Intro 1x
Rhythm Figure 1 1x
Rhythm Figure 2 8x
Fill 1x
Chorus 1x
Rhythm Figure 1 1x
Rhythm Figure 2 8x
Fill 1x
Chorus 1x
Rhythm Figure 1 1x
Rhythm Figure 2 1x (Guitar 2 Plays 3x)
Guitar Solo 1x
Rhythm Figure 1 1x
Rhythm Figure 2 2x
Outro 1x

_________________
Revenir en haut Aller en bas
Voir le profil de l'utilisateur http://greendayparadise.jeun.fr
 
When I Come Around tab
Voir le sujet précédent Voir le sujet suivant Revenir en haut 
Page 1 sur 1

Permission de ce forum:Vous ne pouvez pas répondre aux sujets dans ce forum
Green day fan's :: Green day :: Tablatures et paroles-
Sauter vers: