Green day fan's

Forum consacré au groupe de punk-rock américain green day!!
 
AccueilFAQRechercherS'enregistrerMembresGroupesConnexion

Partagez | 
 

 Give Me Novacaine Tab

Aller en bas 
AuteurMessage
Green Day
Admin
avatar

Nombre de messages : 121
Date d'inscription : 01/02/2006

MessageSujet: Give Me Novacaine Tab   Mer 1 Fév à 15:35

/ slide up
| \ slide down
| h hammer-on
| p pull-off
| ~ vibrato
| + harmonic
| x Mute note


Tuning: Standard E A D G B e




A F#m Bm E

e|---0-0-0-0-0-0-0-0--2-2-2-2-2-2-2-2--2-2-2-2-2-2-2-2--0-0-0-0-0-0-0-0------|
B|---2-2-2-2-2-2-2-2--2-2-2-2-2-2-2-2--3-3-3-3-3-3-3-3--0-0-0-0-0-0-0-0------|
G|---2-2-2-2-2-2-2-2--2-2-2-2-2-2-2-2--4-4-4-4-4-4-4-4--1-1-1-1-1-1-1-1------|
D|---2-2-2-2-2-2-2-2--4-4-4-4-4-4-4-4--4-4-4-4-4-4-4-4--2-2-2-2-2-2-2-2------| x4
A|---0-0-0-0-0-0-0-0--4-4-4-4-4-4-4-4--2-2-2-2-2-2-2-2--2-2-2-2-2-2-2-2------|
E|------------------------(2-2-2-2-2-2-2-2)-----------------------(0-0-0-0-0-0-0-0)-----|


Prechorus (i think) distortion

e|-----------------------------------------|---------------------------------------|
B|-----------------------------------------|---------------------------------------|
G|----7-7-7-7-7----------------------------|-------7-7-7-7-7-----------------------------|
D|----7-7-7-7-7--------7-7-7-7-7-7-7-7-7-7-|-7-7-7-7-7--------7-7-7-7-7-7-7-7-7-7--|
A|--\-5-5-5-5-5--------7-7-7-7-7-7-7-7-7-7-|-5-5-5-5-5--------7-7-7-7-7-7-7-7-7-7--|
E|--\---------------------5-5-5-5-5-5-5-5-5-5-|---------------------5-5-5-5-5-5-5-5-5-5--|


Chorus

e|---------------------------------------------------------------------------------|
B|---------------------------------------------------------------------------------|
G|---7-7-7-7-7-7-7-7-7-7-----------------------------4-4-4-4-4-4-4-4-4-4-/--9-9-9-9-9----|
D|---7-7-7-7-7-7-7-7-7-7--4-4-4-4-4-4-4-4-4-4--4-4-4-4-4-4-4-4-4-4-/--9-9-9-9-9----|
A|---5-5-5-5-5-5-5-5-5-5--4-4-4-4-4-4-4-4-4-4--2-2-2-2-2-2-2-2-2-2-/--7-7-7-7-7----|
E|------------------------------2-2-2-2-2-2-2-2-2-2--------------------------------------|


Verse 2

A F#m Bm E

e|------0-000-000-000--2-222-222-222--2-222-222-222--0-000-000-000------|
B|------2-222-222-222--2-222-222-222--3-333-333-333--0-000-000-000------|
G|------2-222-222-222--2-222-222-222--4-444-444-444--1-111-111-111------|
D|------2-222-222-222--4-444-444-444--4-444-444-444--2-222-222-222------| x2
A|------0-000-000-000--4-444-444-444--2-222-222-222--2-222-222-222------|
E|---------------------------2-222-222-222------------------------0-000-000-000------|
d dud dud dud




e|-------------------------------------------------------------------|
B|--5-/-10~-------10-\-7~---------7-/-12~-------12-/-9~--------------|
G|-------------------------------------------------------------------|
D|-------------------------------------------------------------------|
A|-------------------------------------------------------------------|
E|-------------------------------------------------------------------|


Prechorus

e|-----------------------------------------|---------------------------------------|
B|-----------------------------------------|---------------------------------------|
G|----7-7-7-7-7----------------------------|------7-7-7-7-7-----------------------------|
D|----7-7-7-7-7--------7-7-7-7-7-7-7-7-7-7-|-7-7-7-7-7--------7-7-7-7-7-7-7-7-7-7--|
A|--\-5-5-5-5-5--------7-7-7-7-7-7-7-7-7-7-|-5-5-5-5-5--------7-7-7-7-7-7-7-7-7-7--|
E|--\---------------------5-5-5-5-5-5-5-5-5-5-|---------------------5-5-5-5-5-5-5-5-5-5--|


Chorus

e|---------------------------------------------------------------------------------|
B|---------------------------------------------------------------------------------|
G|---7-7-7-7-7-7-7-7-7-7-----------------------------4-4-4-4-4-4-4-4-4-4-/--9-9-9-9-9----|
D|---7-7-7-7-7-7-7-7-7-7--4-4-4-4-4-4-4-4-4-4--4-4-4-4-4-4-4-4-4-4-/--9-9-9-9-9----|
A|---5-5-5-5-5-5-5-5-5-5--4-4-4-4-4-4-4-4-4-4--2-2-2-2-2-2-2-2-2-2-/--7-7-7-7-7----|
E|------------------------------2-2-2-2-2-2-2-2-2-2--------------------------------------|


Solo

e|---------------------------------------|------------------------------------------------|
B|---------------------------------------|------------------------------------------------|
G|---------------------------------------|------------------------------------------------|
D|---------------------------------------|------------------------------------------------|x3
A|--xxxxxxx--7-7-7-7-7-7-7-7-7-7-7-7-7-7-|-4-4-4-4-4-4-4-4-4-4--7-7-7-7-7-7-7-7-7-7-7-7---|
E|--xxxxxxx--5-5-5-5-5-5-5-5-5-5-5-5-5-5-|-2-2-2-2-2-2-2-2-2-2--5-5-5-5-5-5-5-5-5-5-5-5---|

solo
e|---------------------------------------------------------------------------|
B|---------------------------------------------------------------------------|
G|---4-4-4-4-4-4-4-4--9-9-9-9-9--9--9--9--9--9--9--9--9-9-9-9----------------|
D|---4-4-4-4-4-4-4-4--9-9-9-9-9--9--9--9--9--9--9--9--9-9-9-9----------------|
A|---2-2-2-2-2-2-2-2--7-7-7-7-7--7--7--7--7--7--7--7--7-7-7-7----------------|
E|---------------------------------------------------------------------------|
|
e|---------------------------------------------------------------------------|
B|--------------------9-9-9-9-10-10-10-10-12-12-12-12-9-9-9-9----------------|
G|--------------------9-9-9-9-9--9--9--9--9--9--9--9--9-9-9-9----------------|
D|---------------------------------------------------------------------------|
A|---------------------------------------------------------------------------|
E|---------------------------------------------------------------------------|


Prechorus

e|-----------------------------------------|---------------------------------------|
B|-----------------------------------------|---------------------------------------|
G|----7-7-7-7-7----------------------------|-7-7-7-7-7-----------------------------|
D|----7-7-7-7-7--------7-7-7-7-7-7-7-7-7-7-|-7-7-7-7-7--------7-7-7-7-7-7-7-7-7-7--|
A|--\-5-5-5-5-5--------7-7-7-7-7-7-7-7-7-7-|-5-5-5-5-5--------7-7-7-7-7-7-7-7-7-7--|
E|--\---------------------5-5-5-5-5-5-5-5-5-5-|---------------------5-5-5-5-5-5-5-5-5-5--|


Chorus

e|---------------------------------------------------------------------------------|
B|---------------------------------------------------------------------------------|
G|---7-7-7-7-7-7-7-7-7-7-----------------------4-4-4-4-4-4-4-4-4-4-/--9-9-9-9-9----|
D|---7-7-7-7-7-7-7-7-7-7--4-4-4-4-4-4-4-4-4-4--4-4-4-4-4-4-4-4-4-4-/--9-9-9-9-9----|
A|---5-5-5-5-5-5-5-5-5-5--4-4-4-4-4-4-4-4-4-4--2-2-2-2-2-2-2-2-2-2-/--7-7-7-7-7----|
E|-------------------------------2-2-2-2-2-2-2-2-2-2--------------------------------------|


Outro

e|---0-0-0-0-0-0-0-0--2-2-2-2-2-2-2-2--2-2-2-2-2-2-2-2--0-0-0-0-0-0-0-0------|
B|---2-2-2-2-2-2-2-2--2-2-2-2-2-2-2-2--3-3-3-3-3-3-3-3--0-0-0-0-0-0-0-0--2~--|
G|---2-2-2-2-2-2-2-2--2-2-2-2-2-2-2-2--4-4-4-4-4-4-4-4--1-1-1-1-1-1-1-1--2~--|
D|---2-2-2-2-2-2-2-2--4-4-4-4-4-4-4-4--4-4-4-4-4-4-4-4--2-2-2-2-2-2-2-2--2~--| x2
A|---0-0-0-0-0-0-0-0--4-4-4-4-4-4-4-4--2-2-2-2-2-2-2-2--2-2-2-2-2-2-2-2--0~--|
E|-------------------(2-2-2-2-2-2-2-2)-----------------(0-0-0-0-0-0-0-0)-----|

_________________
Revenir en haut Aller en bas
Voir le profil de l'utilisateur http://greendayparadise.jeun.fr
 
Give Me Novacaine Tab
Revenir en haut 
Page 1 sur 1
 Sujets similaires
-
» 12 " RIA - TEACH / GIVE (1986)
» Give me Strength de Clapton
» I give you my first love
» Le pamplemousse " Give up your love "
» Chuck jackson - I wanna give you some love 1980 EMI america

Permission de ce forum:Vous ne pouvez pas répondre aux sujets dans ce forum
Green day fan's :: Green day :: Tablatures et paroles-
Sauter vers: